Opeth fanlarının bulabileceği en geniş bilgi ve eğlence forumu
 
AnasayfaAnasayfa  TakvimTakvim  SSSSSS  AramaArama  Üye ListesiÜye Listesi  Kullanıcı GruplarıKullanıcı Grupları  Kayıt OlKayıt Ol  Giriş yap  

Paylaş | 
 

 Opeth gitar akorları ve tabları

Önceki başlık Sonraki başlık Aşağa gitmek 
YazarMesaj
Opethian
Admin
Admin
avatar

Mesaj Sayısı : 651
Kayıt tarihi : 04/11/09
Yaş : 23
Nerden : balıkesir...

MesajKonu: Opeth gitar akorları ve tabları   Perş. Ara. 03, 2009 1:26 pm

Opeth - İn My Time Of Need - AKOR
(versiyon 1)


Em Am
I can't see the meaning of this life i'm leading, I try to forget you as you for
got
Em Am
me this time there is nothing left for you to take, this is goodbye

Cm# B Bm Bb
Summer is miles and miles away, and no one would ask me to stay

Em Bm Am Em
And I, should contemplate this change to ease the pain.
Em Bm Am Em
And I, should step out of the rain, turn away.

Em Am
Close to ending it all I am drifting through the stages of the rapture born with
in
Em Am
this loss Thoughts of death inside, tear me apart from the core of my soul

Cm# B Bm Bb
Summer is miles and miles away, and no one would ask me to stay

Em Bm Am Em
And I, should contemplate this change, to ease the pain.
Em Bm Am Em
And I, should step out of the rain, turn away.

Am Bb Am Bb Am Bb C
At times, the dark's fading slowly, but it never sustains.
Am Bb Am Bb Am Bb C
Would someone watch over me, In my time of need.

Cm# B Bm Bb
Summer is miles and miles away, and no one would ask me to stay

Em Bm Am Em
And I, should contemplate this change, to ease the pain.
Em Bm Am Em
And I, should step out of the rain, turn away.
Em Bm Am Em
And I, should contemplate this change, to ease the pain.
Em Bm Am Em
And I, should step out of the rain, turn away.

Bu döküman AkorMerkezi.com'da yayınlanmıştır. http://www.akormerkezi.com
Opeth - İn My Time Of Need KULLANILAN AKORLAR (Beta)
Em 0 2 2 0 0 0 3 x 2 0 0 0 x 2 5 x x 0
Am x 0 2 2 1 0 x 0 7 5 5 5 x 3 2 2 1 0
B x 2 4 4 4 2
Bm 2 2 4 4 3 2 x 2 4 4 3 2 x x 0 4 3 2
Bb 1 1 3 3 3 1 x 1 3 3 3 1 x x 0 3 3 1
C 0 3 2 0 1 0 0 3 5 5 5 3 3 3 2 0 1 0

Opeth - Deliverance - TAB
(versiyon 1)

Legend
.. - palm mute
/ - slide up to
\ - slide down to
h - hammer on Bends
p - pull off f - full bend h - half bend
b - bend r - release t - tap bend
ph - pinch harmonic ~ - vibrato ~ - vibrato bend
* - see comment
X - percussion mute
@ - slight palm mute
() - ghost note, sustained note

Tune Gtr to (EADGBE)

Riff A

|-----------------------------|
|-----------------------------|
|-----------------------------|
|-8---8---8-----8---8---8-----|
|-7---7---7-----7---7---7-----|
|---0---0---0-0---0---0---0-0-|


Riff A Lead 1

|-----------------------------|
|-5-5-5-5-5-5-5-5-5-5-5-5-5-5-|
|-----------------------------|
|-----------------------------|
|-----------------------------|
|-----------------------------|


Riff A Lead 2

|-6-6-6-6-6-6-6-6-6-6-6-6-6-6-|
|-----------------------------|
|-----------------------------|
|-----------------------------|
|-----------------------------|
|-----------------------------|


Riff B (W/Riff A Leads)

|-----------------------------|
|-----------------------------|
|-----------------------------|
|-2---2---2-----2---2---2-----|
|-2---2---2-----2---2---2-----|
|-0---0---0-----0---0---0-----|


Riff C

|--------------------------------------------------------------------------------
|--------------------------------------------------------------------------------
|---------------------------------------------------------------------9-9-9---9--
|-------------------------------------------------8h9-9--------------------------
|-3---3-------------------3---3-------------------7---7-----2---2-----7-7-7---7--
|-2---2---0-0-2p0-0-2p0-0-2---2---0-0-2p0-0-2p0-0-----------0---0----------------


---------------------------------|
---------------------------------|
---------0-----------------------|
-----6-----6---------------------|
---7---7-----7-----7-------3-----|
-0-------------6-----6-2-----2-0-|

Transition 1

|------------------------------|
|------------------------------|
|------------------------------|
|---------------------------2~-|
|-------2---2/4-6-4-----5/8-2--|
|-0-1/4---4---------7/8-----0--|


Riff D GTR 1

|---------------------------------------------------------|
|---------------------------------------------------------|
|-----2-----2-------2-----2-------2-----2-------2-----2---|
|---------5-------------5-------------5-------------5-----|
|---------------------------------------------------------|
|-0-------------0-------------0-------------0-------------|


Riff D GTR 2

|---------------------------------------------------------|
|---------0-------------0-------------0-------------0-----|
|---------0-------------0-------------0-------------0-----|
|-----7-----7-------7-----7-------7-----7-------7-----7---|
|---------------------------------------------------------|
|-0-------------0-------------0-------------0-------------|


Riff D Lead 1

|----------------------------------------------------------
|----------------------------------------------------------
|----------------------------------------------------------
|-----------------------------9~---------------------------
|---------------------------------------------------10-----
|----------------------------------------------------------


---------------------------------------------------------
---------------------------------------------------------
---------------------------------------------------11----
-------------------------------------------------12--12--
-9~--------------------------------------------14------14
---------------------------------------------------------


---------------------------------------------------------
---------------------------------------------------------
---------------------------------------------------------
-14~-----------------------------------------------------
---------------------------------------------------------
---------------------------------------------------------


---------------------------------------------------------
---------------------------------------------------------
---------------------------------------------------11----
(14~)--------------------------------------------12--12--
-----------------------------------------------14------14
---------------------------------------------------------


---------------------------------------------------------|
---------------------------------------------------------|
-11/12~--------------------------------------------11----|
-------------------------------------------------12--12--|
-----------------------------------------------14------14|
---------------------------------------------------------|



Riff D Lead 2 (Walk with me...)

|---------------------------------------------------------
|---------------------------------------------------------
|---------------------------------------------------------
|-14~-----------------------------------------------------
|---------------------------------------------------------
|---------------------------------------------------------


----------------------------------------------------------
---------------------------------------------------------
---------------------------------------------------11----
(14~)--------------------------------------------12--12--
-----------------------------------------------14------14
---------------------------------------------------------


----------------------------------------------------------
---------------------------------------------------------
---------------------------------------------------------
(14~)----------------------------------------------------
---------------------------------------------------------
---------------------------------------------------------


---------------------------------------------------------|
---------------------------------------------------------|
---------------------------------------------------------|
(14~)----------------------------------------------------|
---------------------------------------------------------|
---------------------------------------------------------|


Riff E

|---------------------------------------------------------
|---------------------------------------------------------
|---------------------------------------------------------
|-4---4---4-----4---4---4-----4---4---4-----4---4---4-----
|---------------------------------------------------------
|-2---2---2-----2---2---2-----2---2---2-----2---2---2-----


---------------------------------------------------------|
---------------------------------------------------------|
---------------------------------------------------------|
-4---4---4-----4---4---4-----4---4---4-----5---5---5-----|
---------------------------------------------------------|
-2---2---2-----2---2---2-----2---2---2-----3---3---3-----|


Riff D Again

|---------------------------------------------------------|
|---------------------------------------------------------|
|-----2-----2-------2-----2-------2-----2-------2-----2---|
|---------5-------------5-------------5-------------5-----|
|---------------------------------------------------------|
|-0-------------0-------------0-------------0-------------|


|---------------------------------------------------------|
|---------0-------------0-------------0-------------0-----|
|---------0-------------0-------------0-------------0-----|
|-----7-----7-------7-----7-------7-----7-------7-----7---|
|---------------------------------------------------------|
|-0-------------0-------------0-------------0-------------|



Riff D Lead 3 (with Lead 2 on another guitar)

|---------------------------------------------------------
|-12~-------------------15---\7~--------------------5-----
|---------------------------------------------------------
|---------------------------------------------------------
|---------------------------------------------------------
|---------------------------------------------------------


---------------------------------------------------------
/10~-------------------12--------------------------------
-----------------------------12\11-----------------------
---------------------------------------------------------
---------------------------------------------------------
---------------------------------------------------------


---------------------------------------------------------
-12~-------------------15---\7~--------------------5-----
---------------------------------------------------------
---------------------------------------------------------
---------------------------------------------------------
---------------------------------------------------------


---------------------------------------------------------|
/10~-------------------8-----8\7-5~----------------------|
---------------------------------------------------------|
---------------------------------------------------------|
---------------------------------------------------------|
---------------------------------------------------------|


Riff E Again

Riff B Again

Riff C Again



Transition 1 Again

|------------------------------|
|------------------------------|
|------------------------------|
|--------------------------(9)~|
|-------2---2/4-6-4-----5/8-2--|
|-0-1/4---4---------7/8-----0--|



Riff F With Solo

|---------------------------------------------------------
|---------------------------------------------------------
|---------------------------------------------------------
|-4---4---4-----4---4---4-----5---5---5-----5---5---5-----
|-----------------------------2---2---2-----2---2---2-----
|-2---2---2-----2---2---2-----0---0---0-----0---0---0-----


---------------------------------------------------------|
---------------------------------------------------------|
---------------------------------------------------------|
-7---7---7-----7---7---7-----8---8---8-----3--3---3------|
---------------------------------------------------------|
-5---5---5-----5---5---5-----6---6---6-----1--1---1------|


Solo

|---------------------------------------------------------
|---------------------------------------------------------
|-11--12--15--12h15p12-11h12p11---11----------------------
|------------------------------14----14--11h12p11---------
|------------------------------------------------14~------
|---------------------------------------------------------


---------------------------------------------------------
---------------------------------------------------------
---------------------------------------------------------
-12---12---11---9----------------------------------------
--------------------13---9---10---9---7------------7-----
---------------------------------------------------------


---------------------------------------------------------
-------------------------------8-----8h10-11-10----------
----------------------7h9---9-----9----------------------
-7~------------10----------------------------------------
---------------------------------------------------------
---------------------------------------------------------


-13-p-10-------------------------------------------------
----------12------------------------9--------------------
--------------10----------------10-----10----------------
------------------9-----7-h-10-------------11--10--------
---------------------------------------------------------
---------------------------------------------------------


---------------------------------------------------------
---------------------------------------------------------
---------------------------------------------------------
-8~---------------------------8-----9----8--------8------
----------------------------------------------9----------
---------------------------------------------------------


---------------------------------------------------------
---------------------------------------------------------
---------------------------------------------------------
-9~---------------------------9-----12---11---9----8-----
---------------------------------------------------------
---------------------------------------------------------


---------------------------------------------------------
---------------------------------------------------------
-------------------------------12-p-11------11--12p-11~--
-11~---11-h-14-p-11~--------------------14---------------
---------------------------------------------------------
---------------------------------------------------------


-----------------------------10--13--10------------------
-------------11----------11--------------11--13--10--12--
---------10------9-h-10----------------------------------
-----11--------------------------------------------------
-13------------------------------------------------------
---------------------------------------------------------


---------------------------------------------------------|
---------------------------------------------------------|
-11~-----------------------------------------------------|
---------------------------------------------------------|
---------------------------------------------------------|
---------------------------------------------------------|



|---------------------------------------------------------
|---------------------------------------------------------
|---------------------------------------------------------
|-4---4---4-----4---4---4-----5---5---5-----5---5---5-----
|-----------------------------2---2---2-----2---2---2-----
|-2---2---2-----2---2---2-----0---0---0-----0---0---0-----


---------------------------------------------------------
---------------------------------------------------------
---------------------------------------------------------
-7---7---7-----7---7---7-----8---8---8-----3--3--3-3-2~--
-----------------------------------------------------2---
-5---5---5-----5---5---5-----6---6---6-----1--1--1-1-0---


---------------------------------------------------|
---------------------------------------------------|
---------------------------------------------------|
-(2)~--------------------------------5--5--7--7----|
-(2)---------------------------------6--6--5--5----|
-(0)---------------------------0-0-0---------------|




Riff G

|----------------------------------------------------------------
|----------------------------------------------------------------
|-4-----4-4---4-----------4-------4-----4-4---4-----------4------
|-4-----4-4-x-4-----------4-------4-----4-4-x-4-----------4------
|-2-----2-2-x-0-----------0-------2-----2-2-x-0-----------0------
|----------------------------------------------------------------


----------------------------------------------------------------|
----------------------------------------------------------------|
----------------------------------------------------------------|
-7---7-7---x-7-7-7-7-x-5-5-5-5---x-3-3-3-3-x-x-3-3-x-x----------|
-5---5-5---x-3-3-3-3-x-2-2-2-2---x-1-1-1-1-x-x-1-1-x-x-010---0--|
-----------------------------------1-1-1-1-----1-1---------3----|


Lead

|----------------------------------------------------------------
|----------------------------------------------------------------
|-9~----------11~-------7~------------9~--------6~---------------
|----------------------------------------------------------------
|----------------------------------------------------------------
|----------------------------------------------------------------


----------------------------------------------------------------|
----------------------------------------------------------------|
-10~---------9~--------14~-----------12~-------10~--------------|
----------------------------------------------------------------|
----------------------------------------------------------------|
----------------------------------------------------------------|


Riff H

|---------------------------------------------------------------
|---------------------------------------------------------------
|---------------------------------------------------------------
|-4-----------------------------4-------------------------------
|-4-----4-----2-----2-2-2-2-2-2-4-----4-----2-----2-2-2-2-2-2-2-
|-2-----0-----3-----3-3-3-3-3-3-2-----0-----3-----3-3-3-3-3-3-3-


---------------------------------------------------------------|
---------------------------------------------------------------|
---------------------------------------------------------------|
-4-----------------------------7-7-7-7-7-7-5-5-5-5-5-5-5-5-5-5-|
-4-----4-----2-----2-2-2-2-2-2-8-8-8-8-8-8-6-6-6-6-6-6-6-6-6-6-|
-2-----0-----3-----3-3-3-3-3-3---------------------------------|


Last repeat

---------------------------------------------------------------|
---------------------------------------------------------------|
---------------------------------------------------------------|
-4-----------------------------7-7-7-7-7-7-5---------5---5-----|
-4-----4-----2-----2-2-2-2-2-2-8-8-8-8-8-8-6---------6---6-----|
-2-----0-----3-----3-3-3-3-3-3-----------------0-0-0-----------|


Riff I

|---------------------------------------------------------------|
|---------------------------------------------------------------|
|---------------------------------------------------------------|
|---------------------------------------------------------------|
|-----------------------------------------------------------5h7-|
|-0-0-0-0-0-0-0-0-0-0-0-0-0-0-0-0-0-0-0-0-0-0-0-0-0-030-5h6-----|


Riff J

|-----------------------------------------------------------------
|-------0-------------------------------0-----------0-----------0-
|-----0---0-------0-----0---0---0-----0---0-------0---0-------0---
|---2-------2---2-----2-------------2-------2---2-------2---2-----
|-----------------------------0---4-----------3-----------3-------
|-0-----------0-----2-----3---------------------------------------


---------------------------------------gtr 2---------------------|
-------0-------------------------------13----13----13----13------|
-----0---0-------0-----0---0---0-------13----13----13----13------|
---2-------2---2-----2-------------------------------------------|
-----------------------------0---1~------------------------------|
-0-----------0-----2-----3---------------------------------------|


Outro Lead

|-7-----6-----4-----4-----4---4---7-----6-----4-----4-----4---4---
|---0-0---0-0---0-0---0-0---0---0---0-0---0-0---0-0---0-0---0---0-
|-----------------------------------------------------------------
|-----------------------------------------------------------------
|-----------------------------------------------------------------
|-----------------------------------------------------------------


-3-----3-----0-----0-----0---0---3-----4-----0-----0-----0---0---|
---0-0---0-0---0-0---0-0---0---0---0-0---0-0---0-0---0-0---0---0-|
-----------------------------------------------------------------|
-----------------------------------------------------------------|
-----------------------------------------------------------------|
-----------------------------------------------------------------|


Outro Rhythm

|-----------------------------------------------------------------
|-----------------------------------------------------------------
|-----------------------------------------------------------------
|-----------------------------------------------------------------
|---2-2-2-2---------2-2-2-2-2-------2-2-2-2-----2---2-2-2-2-2-----
|---0-0-0-0---------0-0-0-0-0-------0-0-0-0-----0---0-0-0-0-0-----


-----------------------------------------------------------------|
-----------------------------------------------------------------|
-----------------------------------------------------------------|
-----------------------------------------------------------------|
-222222222-----2---2-2-2---2-2-2---2-2-2---2-2-2---2-2-2-2-2-2---|
-000000000-----0---0-0-0---0-0-0---0-0-0---0-0-0---0-0-0-0-0-0---|


2nd Outro Lead

|-----------------------------------------------------------------|
|-12----11----8-----9~------------12----11----8-----9-------------|
|-----------------------------------------------------------------|
|-----------------------------------------------------------------|
|-----------------------------------------------------------------|
|-----------------------------------------------------------------|


2nd Outro Rhythm

|-----------------------------------------------------------------|
|-----------------------------------------------------------------|
|-----------------------------------------------------------------|
|-2-2-2-2-2-2-2-2-2-2-2-2-2-2-2-2-2-2-2-2-2-2-2-2-2-2-2-2-2-2-2-2-|
|-----------------------------------------------------------------|
|-----------------------------------------------------------------|


Opeth - Bleak - TAB
(versiyon 1)

|=a bar line (an actual bar line)
( )=a ghost note
< >=a sustained note
b=a (pre-)bent note
>=an emphasized note/chord
*=a transcriber�s note

I arranged this for as few gtrs. as possible. / Oğulcan Türker

4/4
Gtr.4 (w/dist.)
|-----------------|-----------------|-----------------|-----------------|
|(0)--------------|<0>--------------|<0>--------------|<0>--------------|
|-4---------------|<4>--------------|<4>--------------|<4>--------------|
|-----------------|-----------------|-----------------|-----------------|
|-----------------|-----------------|-----------------|-----------------|
|-----------------|-----------------|-----------------|-----------------|
Gtr.3 (acoustic w/pick)
|-0---------------|-----------------|-0---------------|-----------------|
|-11--------------|-----------------|-11--------------|-----------------|
|-9---------------|------(rest)-----|-9---------------|------(rest)-----|
|-8---------------|-----------------|-8---------------|-----------------|
|-7---------------|-----------------|-7---------------|-----------------|
|-0---------------|-----------------|-0---------------|-----------------|
Gtr.2 (w/dist.)
|-----------------|-----------------|-----------0-----|<0>--------------|
|-----------------|-----------------|-----------11----|<11>-------------|
|-----------------|-----------------|-----------------|-----------------|
|-2---------------|<2>--------------|<2>--------------|-----------------|
|-2---------------|<2>--------------|<2>--------------|-----------------|
|-0---------------|<0>--------------|<0>-------<0>----|<0>--------------|
Gtr.1 (w/dist., tacet)
Gtr.4
|-----------------|-----------------|-----------------|-----------------|
|--(0)------------|<0>--------------|<0>--------------|<0>--------------|
|---4-------------|<4>--------------|<4>--------------|<4>--------------|
|-----------------|-----------------|-----------------|-----------------|
|-----------------|-----------------|-----------------|-----------------|
|-----------------|-----------------|-----------------|-----------------|
Gtr.3
|-0-------|---------|---------------0-0-0-0-0---0-0---|-----------------|
|-11------|---------|-----------11----0-0-0-0---0-0---|-----------------|
|-9-------|--(rest)-|---------9-------1212129---9-3---|s6-s8-s10s8-s10--|
|-8-------|---------|-------8---------x-x-x-x---x-x---|-x--x--x--x--x---|
|-7-------|---------|-----7-----------1010107---7-1---|s4-s6-s8-s6-s8---|
|-0-------|---------|-0-------------------------------|-----------------|
> > > > >
Gtr.2 gtrs.1&2
|-----------------|-----------------|-----------------|-----------------|
|-----------------|-----------------|-----------------|-----------------|
|-----------------|-----------------|-----------------|-----------------|
|-----------------|-----------------|-----------------|-----------------|
|-----------------|-----------------|-----------------|----------/xx\---|
|<0>--------------|-0---------------|<0>--------------|<0>-------/xx\---|
Gtr.2
|---------------------------------|---------------------------------|
|*-----hp-------------------------|------hp-------------------------|
|-----454---4-----4h5p4-----------|-----454---4-----4h5p4-----------|
|---------7---7-6-------------6---|---------7---7-6-------------6-7-|
|*----------------------8-7-8-----|-----------------------8-7-8-----|
|(0)------------------------------|(0)------------------------------|
Gtr.1
|---------------------------------|---------------------------------|
|*--------------------------------|---------------------------------|
|---------------------------------|---------------------------------|
|-2-------------------------------|-2-------------------------------|
|*2-------------------------------|-2-------------------------------|
|-0-------------------------------|-0-------------------------------|
> >
Segno
Gtr.2 *=you can also play this starting
from D string instead of G.
|---------------------------------|---------------------------------|
|------hp-------------------------|-*------------------------------*|
|-----454---4-----4h5p4-----------|-3h4p3---------------------------|
|---------7---7-6-------------6---|-------5-4-2-5-4---2-4-2-1-------|
|-----------------------8-7-8-----|---------------------------2~---*|
|(0)------------------------------|---------------------------------|
Gtr.1 pm.....>
|---------------------------------|---------------------------------|
|---------------------------------|--------------------------------*|
|---------------------------------|-----------(look above)----------|
|-2-------------------------------|---------------------------------|
|-2-------------------------------|--------------------------------*|
|-0-------------------------------|---------------------------------|
>
Gtr.3
|---------------------------------|---------------------------------|
|---------------------------------|---------------------------------|
|-------------(rest)--------------|---7s9---9s8---9---10--13--------|
|---------------------------------|---x-x---x-x---x---x---x---------|
|---------------------------------|---5s7---7s6---7---8---11--------|
|---------------------------------|---------------------------------|
Gtr.2 *=first time only
|s19----------17------------------|-16------------------------------|
|*12*---------10*-----------------|---------------17-gb-18----------|
|---------------------------------|---------------------------------|
|---------------------------------|---------------------------------|
|*--------------------------------|---------------------------------|
|---------------------------------|---------------------------------|
Gtr.1
|---------------------------------|---------------------------------|
|---------------------------------|---------------------------------|
|---------------------------------|---------------------------------|
|-2-------------------------------|---------------------------------|
|-2-------------------------------|---------------------------------|
|-0-------------------------------|-----------------------------0-1-|
Gtr.3 (tacet)
Gtr.2 *=by add. gtr. 3rd time 1.-3............................>
|---------------------------------|---------------------------------|
|<18>-----------------------------|-17~----------------------------*|
|-9b10~*--------------------------|-9~*-----------------------------|
|---------------------------------|---------------------------------|
|---------------------------------|--------------------------------*|
|---------------------------------|---------------------------------|
Gtr.1 1.-3............................>
|---------------------------------|---------------------------------|
|---------------------------------|---------------------------------|
|---------------------------------|---------------------------------|
|-6---6-6-6s7s6s7---6---6-3---3---|-2-------------------------------|
|-x---x-x-x-x-x-x---x---x-x---x---|-2-------------------------------|
|-4---4-4-4s5s4s5---4---4-1---1---|-0-------------------------------|
4. ending
Gtr.3 (tacet)
Gtr.2
|---------------------------------|
|-17~-----------------------------|
|---------------------------------|
|---------------------------------|
|---------------------------------|
|---------------------------------|
Gtr.1
|---------------------------------|
|---------------------------------|
|---------------------------------|
|-2-----------------6-------------|
|-2-------------------8-7-5-------|
|-0-------------------------8-7-5-|
pm...........>
Gtr.2
|---------------------------------|---------------------------------|
|---------------------------------|---------------------------------|
|-13----13131313----13131312--13--|-12----1212xs7-----7-7-7-7---7---|
|-x-----x-x-x-x-----x-x-x-x---x---|-x-----x-x-x-x-----x-x-x-x---x---|
|-11----11111111----11111110--11--|-10----1010xs5-----5-5-5-5---5---|
|---------------------------------|---------------------------------|
Gtr.1
|---------------------------------|---------------------------------|
|-4-----4-x-x-4-----4-4-4-4---4-4-|-3-------------------------------|
|-4-----4-x-x-4-----4-4-4-4---4-4-|-4-------------------------------|
|-6-----6-x-x-6-----6-6-6-6---6-6-|-5-(sim. to previous bar)--------|
|-6-----6-x-x-6-----6-6-6-6---6-6-|-5-------------------------------|
|-4-----4-x-x-4-----4-4-4-4---4-4-|-3-------------------------------|
Gtr.2
|---------------------------------|---------------------------------|
|---------------------------------|---------------------------------|
|-11----1111111-----11111s7---7-7-|s10----10101010----10101010--10--|
|-x-----x-x-x-x-----x-x-x-x---x-x-|-x-----x-x-x-x-----x-x-x-x---x---|
|-9-----9-9-9-9-----9-9-9s5---5-5-|s8-----8-8-8-8-----8-8-8-8---8---|
|---------------------------------|---------------------------------|
Gtr.1
|---------------------------------|---------------------------------|
|-7-----7-x-x-7-----7-7-7-7gs-----|-1-------------------------------|
|-7-----7-x-x-7-----7-7-7-7gs-----|-2-------------------------------|
|-9-----9-x-x-9-----9-9-9-9gs-----|-3-(sim. to G#m&G strumming)-----|
|-9-----9-x-x-9-----9-9-9---------|-3-------------------------------|
|-7-----7-x-x-7-----7-7-7---------|-1-------------------------------|
Gtr.1 repeats last 4 bars
Gtr.2
|---------------------------------|---------------------------------|
|---------------------------------|---------------------------------|
|-13----13131313----13131315--16--|-15----1515xs7-----7-7-7-7---7-7-|
|-x-----x-x-x-x-----x-x-x-x---x---|-x-----x-x-x-x-----x-x-x-x---x-x-|
|-11----11111111----11111113--14--|-13----1313xs5-----5-5-5-5---5-5-|
|---------------------------------|---------------------------------|
Gtr.2 D.S. al Coda
(To segno)
|---------------------------------|---------------------------------|
|---------------------------------|---------------------------------|
|-6-----6-6-x-7-----7-7-7-4---4---|-5-----5-5-5-5-----5-5-5-5---5---|
|-x-----x-x-x-x-----x-x-x-x---x---|-x-----x-x-x-x-----x-x-x-x---x---|
|-4-----4-4-x-5-----5-5-5-2---2---|-3-----3-3-3-3-----3-3-3-3---3---|
|---------------------------------|---------------------------------|
Gtr.3 *=let all notes ring
|---------0-----------------------|
|*-------------------------------*|
|----10---------------------------|
|---9---9-------------------------|
|**---------8p7------------------*|
|-0-------------------------------|
Gtr.3 (acoustic w/pick)
|-------------2-------------------|---|-3---3-3---3-3-----3-------------|
|*------3--(3)2-------------------|---|-3---3-3---3-3-----3------------*|
|(4)-(4)4--(4)4---------------0---|-%-|-0---0-0---0-2-----2-2p0---------|
|-4--(4)4--(4)4-----------4-----4-|---|-0---0-0---0-0-----0-----3---0h3-|
|*2--(2)2--(2)2---------2---------|---|-x---x-x---x-x-----x-------3----*|
|---------------------3-----------|---|-3---3-3---3-3-----3-------------|
Last ending gtr.gtr. 5 (acoustic, finger picked)
9/8 out 4/4
|-3---3-3---3-3-----3---------0-------|---------------------------------|
|-3---3-3---3-3-----3-----------------|---------------------------------|
|-0---0-0---0-2-----2-----0-------5---|<5>--4-------4-------2-------2---|
|-0---0-0---0-0-----0-2s4---4-----7---|<7>--7-------1-------1-------2---|
|-x---x-x---x-x-----x-------------0---|<0>-----(x)--2----------(x)------|
|-3---3-3---3-3-----3-----------------|-----------------------------0---|

|---------------------------------|---------------------------------|
|---------------------------------|---------------------------------|
|<2>--0-------0-------------------|-------4-5h4-------------4---5---|
|<2>--2---4s5---------2-----------|-2s4-5-------5h4-------2---------|
|-----------------0h2-------------|-----------------0---------0-----|
|<0>---(0)--------------2---0-3---|---------------------------------|

|---------------------------------|-------------3--<3>-------------->
|---------------------------------|-------4---4---------------------<
|---4-----2-----------4-----------|-----4--------------------------->
|-------------------4---------1---|<1>4-----------------------------<
|-0-----0---------2-----3---------|---------2----------------------->
|---------------------------------|---------------------------------<
Solo w/semi clean electric
|---------------------------------|---------------------------------|
|---------------------------------|---------------------------------|
|---------------------------------|-----------------------14b16rb16-|
|------------s14------------------|---------------------------------|
|---------------------------------|---------------------------------|
|---------------------------------|---------------------------------|
Acoustic w/fingers
|---------------------------------|---------------------------------|
|*--------------------------------|---------------------0----------*|
|-----------0---------------------|---------0-------0-----0---------|
|---------2---4-----------2-------|-------4---4---4---4-------------|
|*--------------------------------|s4-----------3------------------*|
|-0-----------------0---0---------|-------------------------3-2-----|
Acoustic cont. sim. *=pre-bent from 11th fret
|---------------------------------|---------------------------------|
|---------------------15----------|-------------*-------------------|
|--------------(hold)b16r14--|<14>---------b12r11--------------|
|---------------------------------|---------------------------------|
|---------------------------------|---------------------------------|
|---------------------------------|---------------------------------|
Acoustic cont.sim.
|---------------------------------|---------------------------------|
|-----------------------p---------|---------------------------------|
|<11>---------------111211--11214-|-11----12------------------------|
|---------------1214------14------|-------------------------s14~----|
|-------------14------------------|---------------------------------|
|---------------------------------|---------------------------------|
Acoustic cont. sim. *=two triplets
|---------------------------------|-----------*---------------------|
|---------------------------------|--*-------17-15------------------|
|----------------------------14---|-16----14-------14-16------------|
|<14>--------------------------14-|----14---------------------------|
|---------------------------------|---------------------------------|
|---------------------------------|---------------------------------|
The dist. riff (chords)
Esus9
|-------------------------|
|-------------------------|
|-4-----5-----6-----5-----|
|-4-----4-----4-----4-----|
|-2-----3-----4-----3-----|
|-0-----0-----0-----0-----|

Sizlerde paylaşabilirsiniz...
Sayfa başına dön Aşağa gitmek
Kullanıcı profilini gör http://opeth-fan.forumotion.com
 
Opeth gitar akorları ve tabları
Önceki başlık Sonraki başlık Sayfa başına dön 
1 sayfadaki 1 sayfası
 Similar topics
-
» En iyi 100 heavy metal solisti

Bu forumun müsaadesi var:Bu forumdaki mesajlara cevap veremezsiniz
Opeth Türkiye :: Opeth Genel :: Dosya Arşivi-
Buraya geçin: